Ultravox.org.uk Extreme Voice Official Ultravox Website

Pre-order Ultravox's 'Extended' remastered remixes album here now, exclusive bundles available!


Topic Options
#98981 - Tue, 02 Feb 2010 00:09:00 Help a newbie guitarist
The airman Offline
Pass level: VIP

Registered: Wed, 01 Dec 2004 20:00:00
Posts: 26
Loc: sussex
Does anyone know the TABS for the guitar solo in New Europeans? Iím okay for the chords; itís just that solo bit. Any help would be very much appreciated.

Top
#98982 - Fri, 26 Feb 2010 04:16:00 Re: Help a newbie guitarist
Tom Allen Offline
Pass level: VIP

Registered: Mon, 12 Sep 2005 19:00:00
Posts: 4
Loc: Exeter
New Europeans is something like (you'll have to forgive the formatting).

(1/16ths) 1 2 3 & 4(etc)
E |---------|---------------|---------------|-----------------|-----------------|
B |---------|---------------|---------------|-----------------|-----------------|
G |-----0-1-|---------------|---------------|-----------------|-----------------|
D |-3-4-----|---------3-----|---------3-----|-----------------|-----3-------3---|
A |---------|-1---1-----1---|-0---0-----0---|-----------1-4---|-4-------3-------|
E |---------|---------------|---------------|-2---2---4-------|-----------------|

E |---------------|---------------|-----------------|-----------------|
B |---------------|---------------|-----------------|-----------------|
G |---------------|---------------|-----------------|-----------------|
D |---------3-----|---------3-----|-----------------|-----------------|
A |-1---1-----1---|-0---0-----0---|-----------1-4---|-4-4-4-1-3-3-3-0-|
E |---------------|---------------|-2---2---4-------|-----------------|

E |---------------|---------------|-----------------|-----------------|
B |---------------|---------------|-----------------|-----------------|
G |---------------|---------------|-----------------|-----------------|
D |---------3-----|---------3-----|-----------------|-----3-------3---|
A |-1---1-----1---|-0---0-----0---|-----------1-4---|-4-------3-------|
E |---------------|---------------|-2---2---4-------|-----------------|

E |---------------|---------------|-----------------|-----------------|
B |---------------|---------------|-----------------|-----------------|
G |---------------|---------------|-----------------|-----------------|
D |---------3-----|---------3-----|-----------------|-----------------|
A |-1---1-----1---|-0---0-----0---|-----------1-4---|-4-4-4-1-3-3-3-0-|
E |---------------|---------------|-2---2---4-------|-----------------|

E |---------------|---------------|-----------------|-----------------|
B |---------------|---------------|-----------------|-----------------|
G |---------------|---------------|-----------------|-----------------|
D |---------3-----|---------3-----|---------3-------|-----2-----------|
A |-1---1-----1---|-0---0-----0---|-4---4-----4-----|-3-------2-------|
E |---------------|---------------|-----------------|-------------0---|

Top
#98983 - Sun, 28 Feb 2010 20:12:00 Re: Help a newbie guitarist
The airman Offline
Pass level: VIP

Registered: Wed, 01 Dec 2004 20:00:00
Posts: 26
Loc: sussex
Thanks very much indeed, Iíll give it a go.

Top
#98984 - Fri, 12 Mar 2010 10:05:00 Re: Help a newbie guitarist
johnh Offline
Pass level: Press

Registered: Fri, 24 Mar 2006 20:00:00
Posts: 53
Loc: East Yorkshire
Thanks for that Tom. I had the chords etc and a good demo from youtube but couldnt follow the riff. I have just about learnt it now thanks to you. Cheers.

Top